cerrar
menos
más
Recursos Canciones
« En PDF para Imprimir     Acordes y Tablaturas para Guitarra, Canciones y Tabs de tus artistas Share

Adele

Daydreamer

TRANSCRIPCIÓN: Iveyisawesome
+INFO: Desconocido
ALBUM: 19
PAÍS: Reino Unido
GENERO: Soul

 
Acorde A
A
Acorde Amaj7
Amaj7
Acorde E11
E11
Intro: A Amaj7

A
Daydreamer, sittin on the seat

Soaking up the sun he is a
Amaj7
Real lover, makin up the past and feeling up his girl like he's never felt

A Amaj7

A
Jaw dropper

Looks good when he when he walks, he is the subject of their talk
            Amaj7
He would be hard to chase, but good to catch and he could change the world

with his hands behind his back, Oh...

e-------------------             ----------------|
B---5-----------5---             ----------5-----|
G-----6-------6----- (x4 veces)  ----------6-----|
D-----------0-------             -------0--------|  
A-0-----0-0---------             ----------0-----|
E-------------------             ----------------|

E11                              Amaj7
You can find him sittin on your doorstep
E11             Amaj7
Waiting for the surprise
E11                                   Amaj7
It will feel like he's been there for hours
E11                                     Amaj7
And you can tell that he'll be there for life

A
Daydreamer, with eyes that make you melt
                                           Amaj7
He lends his coat for shelter because he's there for you when he shouldn't be
                                                           A
But he stays all the same, waits for you and then sees you through

A Amaj7

A                Amaj7
There's no way I could describe him
A                 Amaj7
What I'll say is, just what I'm hoping for

e-------------------             ----------------|
B---5-----------5---             ----------5-----|
G-----6-------6----- (x4 veces)  ----------6-----|
D-----------0-------             -------0--------|  
A-0-----0-0---------             ----------0-----|
E-------------------             ----------------|

E11                               Amaj7
But I will find him sittin on my doorstep
E11             Amaj7
Waiting for the surprise
E11                                  Amaj7
It will feel like he's been there for hours
E11                              Amaj7
And I can tell he'll be there for life
E11                               Amaj7 (punteo lento)
And I can tell he'll be there for life
FUENTE: Webs de Acordes

Aprende con Video Lecciones de Adele:
  · Videotutoriales de Adele
Otras Canciones para Guitarra que te pueden interesar:
Tablaturas de Amy Winehouse Canciones de Adele Acordes de Norah Jones

Todas las canciones son interpretaciones propias y personales de sus transcriptores. El material contenido en esta página es para exclusivo uso privado, por lo que queda prohibida la reproducción total o parcial así como su uso para fines comerciales.

Contactar : Aviso Legal : Videolecciones : Tablaturas : Webmasters : Mapa Web
© GuitarAcordeS.com