cerrar
menos
más
Recursos Canciones
« En PDF para Imprimir     Acordes y Tablaturas para Guitarra, Canciones y Tabs de tus artistas Share

Aerosmith

Jaded

TRANSCRIPCIÓN: Desconocido
+INFO: Desconocido
ALBUM: JUST PUSH PLAY
PAÍS: USA
GENERO: Rock

 
Acorde A
A
Acorde Amaj7
Amaj7
Acorde Dsus2
Dsus2
Acorde Dmaj7
Dmaj7
Acorde Bm
Bm
Acorde D
D
Acorde E
E
Acorde F#m
F#m
Acorde C#m*4
C#m
*=traste4

Acorde Dm
Dm
Intro:
E|--------------------------------------------------------------| 
B|--------------------------------------------------------------| 
G|--------------------------------------------------------------| 
D|------7---6~6-6-6-6-4---6~6p7h6-4-6-4---6~6p7h6-4-6-4---------| 
A|----------0~0-----------0-0-------------0-0-------------------| 
E|--------------------------------------------------------------| 

E|----------------------------------------------------------| 
B|----------------------------------------------------------| 
G|--6-6-6-6/4-4---------------------------------------------| 
D|--0-----0-------------------------------------------------| 
A|----------------------------------------------------------| 
E|----------------------------------------------------------| 
                                                
A         Amaj7       
Hey ja-ja-jaded, 
        Dsus2
 you've got your mama's style 
           Dmaj7              A   
But your yesterday's child to me
   Amaj7 
So jaded
    Dsus2  
You think that's where it's at 
       Dmaj7                       Bm
But is that where it's supposed to be
       D                   Bm    D   
You're gettin' it all over me  X-rated 

A  Amaj7  F#m E  C#m
My My     ba__by blue
E 
Yeah I've been thinkin' about you
A  Amaj7  F#m E  C#m
My My     ba__by blue
E              Bm    
Yeah you're so jaded 
    D
And I'm the one that jaded you

|---------------------------------------
B|---------------------------------------
G|---------------------------------------
D|----------6~6-6-6-6-4---6~6p7h6-4-6-4--
A|----------0~0-----------0-0------------
E|------------------------------------

Hey ja-ja-jaded
In all it's misery 
It will always be what I love and hated
And maybe take a ride to the other side 
We're thinkin' of
We'll slip into the velvet glove 
And be jaded

My my baby blue
Yeah I'm thinkin about you
My my baby blue
Yeah I'm so jaded
And baby I'm afraid of you

E                         D
Your thinking's so complicated
E                     D
I've had it all up to here
E               Bm
But it's so overrated
         A
Love and hate it 
           F#m
Wouldn't trade it
Dm
Love me jaded
 E           D            E           D            E           Bm  
---4-----------2--------|---4-----------2------5-|---4-----------2------------
------7---5-------5---3-|------7---5-------5-----|------7---5-------5---3-----
-4--4---4----2--2---2---|-4--4---4----4--2---2---|-4--4---4----2--2---2-------
------------------------|------------------------|----------------------------
------------------------|------------------------|----------------------------
------------------------|------------------------|----------------------------
                                                                              
 A          F#m         Dm
---------------------------------------------
-------5br--------4br--------3br---3br--3br--
-----5----------4----------3-----------------
---5----------4----------3-------------------
-3----------2----------1---------------------
---------------------------------------------

Solo:

  Amaj7                    Dmaj7    E      Amaj7
--------------------2-4-5--9br-9p7----7-----------------
--5-2-----------2-5---------------10---10-9-10v~~~~~~~...
------2-------2---------------------------------------
--------4-2-4-----------------------------------------
------------------------------------------------------
FUENTE: Webs de Acordes

Aprende con Video Lecciones de Aerosmith:
  · Videotutoriales de Aerosmith
Otras Canciones para Guitarra que te pueden interesar:
Tablaturas de U2 Canciones de Queen Acordes de Fito & Fitipaldis

Todas las canciones son interpretaciones propias y personales de sus transcriptores. El material contenido en esta página es para exclusivo uso privado, por lo que queda prohibida la reproducción total o parcial así como su uso para fines comerciales.

Contactar : Aviso Legal : Videolecciones : Tablaturas : Webmasters : Mapa Web
© GuitarAcordeS.com