cerrar
menos
más
Recursos Canciones
« En PDF para Imprimir     Acordes y Tablaturas para Guitarra, Canciones y Tabs de tus artistas Share

Audioslave

The Curse

TRANSCRIPCIÓN: Marcio Rodrigo Correia da Silva
+INFO: marcioaudioslave@hotmail.com
ALBUM: OUT OF EXILE
PAÍS: USA
GENERO: Hard Rock

 
Acorde E
E
Acorde A
A
Acorde B
B
Acorde C#m*4
C#m
*=traste4

Acorde C
C
Acorde F#
F#
Acorde Am
Am
Intro: E A E
 
e|------------------------------------- 
B|------------------------------------- 
G|----------2-------------------------- 
D|-2------2---2-4---------------------- 
A|-----------------------4---3------0-- 
E|---------------------4---4-----------
 
E           A              E 
  Help me I don't know I'm doin 
            A              E 
  Help me before I fall to ruin 
B            A     E 
  And if I'm blind, I will lead you on 
B             A         C#m              B 
  Come follow me now, before our time is gone 
A                                C#m 
  And as you're laughing at this fool tonight 
         C                           A 
  Let me rid myself of any line that I might use to  
  C 
  trip you up 
E                       C#m                  C 
  And as I'm howling at moonlight, don't you kid  
                           B 
  yourself, I will be your luck  
              E   A  E                   A  E 
  Never be your curse never be your curse 
            A                   E 
  Help me I don't know what I'm saying 
                 A               E 
  Sometimes this tongue can be betraying 
B            A     E 
  And if I'm wrong, is that such a crime 
B            A             C#m             B 
  And if you want, you can set my words to right 
A                                   C#m 
  So and as you're laughing at this fool tonight 
         C                           A            
  Let me rid myself of any line that I might use to  
  C 
  trip you up 
E                       C#m                  C 
  And as I'm howling at moonlight, don't you kid  
                           B 
  yourself, I will be your luck 
F#            A              E 
  And if your eyes forget to well 
F#            A              E 
  And if your lies forget to tell 
B            A               C#m 
  And if our paths forget to cross 
     B                   C#m 
  It doesn't mean you're lost 
 
Solo: 
 
e|------7--4--5-4-2-4--2-0----------7--4--5-4-2-0- 
B|----5--------------------6p4-6--5--------------- 
G|-6---------------------------------------------- 
D|------------------------------------------------ 
A|------------------------------------------------ 
E|------------------------------------------------ 
 
e|------------7--4--5-4-5-7-5-4-5-7-5-4-5-7-5-4-2-0- 
B|-----5----5--------------------------------------- 
G|-4h6---6------------------------------------------ 
D|-------------------------------------------------- 
A|-------------------------------------------------- 
E|-------------------------------------------------- 
 
e|------7--4----------------- 
B|----5---------------------- 
G|-6------------------------- 
D|--------------------------- 
A|--------------------------- 
E|--------------------------- 
 
A                                   C#m 
  So and as you're laughing at this fool tonight 
         C                           A     
  Let me rid myself of any line that I might use to  
  C 
  trip you up 
E                       C#m                  C 
  And as I'm howling at moonlight, don't you kid  
                             A 
  yourself, cause even at my worst 
E                            C#m 
  If you're laughing at this fool tonight 
         C                           A          
  Let me rid myself of any line that I might use to  
  C 
  trip you up 
E                       C#m                  C 
  And as I'm howling at moonlight, don't you kid  
                           A 
  yourself, I will be your luck 
        Am         C 
  Cause even at my worst 
                 B 
  I will be your luck 
                E 
  Never be your curse 
FUENTE: Webs de Acordes

Aprende con Video Lecciones de Audioslave:
  · Videotutoriales de Audioslave
Otras Canciones para Guitarra que te pueden interesar:
Tablaturas de Gun's 'N' Roses Canciones de AC-DC Acordes de Extreme

Todas las canciones son interpretaciones propias y personales de sus transcriptores. El material contenido en esta página es para exclusivo uso privado, por lo que queda prohibida la reproducción total o parcial así como su uso para fines comerciales.

Contactar : Aviso Legal : Videolecciones : Tablaturas : Webmasters : Mapa Web
© GuitarAcordeS.com