cerrar
menos
más
Recursos Canciones
« En PDF para Imprimir     Acordes y Tablaturas para Guitarra, Canciones y Tabs de tus artistas Share

Bryan Adams

Run To You

TRANSCRIPCIÓN: SilverHammer
+INFO: Desconocido
ALBUM: RECKLESS
PAÍS: Canadá
GENERO: Pop Rock

 
Acorde F#m
F#m
Acorde A
A
Acorde E
E
Acorde B
B
Acorde D
D
INTRO: 
 
E---------------------------------------------------------------- 
B---------------------------------------------------------------- 
G----------------------------------------------------------------   
D---------2---------2---------------2----------2----------------- 
A------4---------4-----4---------4----------6-----6-------------- 
E---2---------2-----------2---5----------7-----------7----------- 
 
F#m A E B 
She says her love for me could never die 
But that'd change if she ever found out about you and I 
Oh - but her love is cold 
It wouldn't hurt her if she didn't know, 'cause... 
 
D  
When it gets too much 
E 
I need to feel your touch 
 
Chorus:
F#m A E B 
I'm gonna run to you 
F#m A E B 
I'm gonna run to you 
F#m A E B 
Cause when the feelin's right I'm gonna run all night 
F#m A E B 
I'm gonna run to you 
 
(Intro)
She's got a heart of gold she'd never let me down 
But you're the one that always turns me on 
You keep me comin' 'round 
I know her love is true 
But it's so damn' easy makin' love to you 
 
D 
I got my mind made up 
E 
I need to feel your touch 
 
Chorus:
F#m A E B 
I'm gonna run to you 
F#m A E B 
I'm gonna run to you 
F#m A E B 
Cause when the feelin's right I'm gonna run all night 
F#m A E B 
I'm gonna run to you 
 
Solo: 
 
||--------------|-----------|-------------|--------------| 
||11/12-11------|-9/10-9----|-7/8-7-------|-9/10-9-------| 
||--------11----|-------9---|------7------|-------9------| (x2 veces) 
||----------11~-|--------9~-|-------7~----|--------9~----| 
||--------------|-----------|-------------|--------------| 
||--------------|-----------|-------------|--------------| 
 
F#m A E B 
 
(Chorus)
FUENTE: Webs de Acordes

Aprende con Video Lecciones de Bryan Adams:
  · Videotutoriales de Bryan Adams
Otras Canciones para Guitarra que te pueden interesar:
Tablaturas de Ricardo Arjona Canciones de Maná Acordes de Oasis

Todas las canciones son interpretaciones propias y personales de sus transcriptores. El material contenido en esta página es para exclusivo uso privado, por lo que queda prohibida la reproducción total o parcial así como su uso para fines comerciales.

Contactar : Aviso Legal : Videolecciones : Tablaturas : Webmasters : Mapa Web
© GuitarAcordeS.com