cerrar
menos
más
Recursos Canciones
« En PDF para Imprimir     Acordes y Tablaturas para Guitarra, Canciones y Tabs de tus artistas Share

Celtas Cortos

La senda del tiempo

TRANSCRIPCIÓN: Oscar Santiago
+INFO: España
ALBUM: GENTE IMPRESENTABLE
PAÍS: España
GENERO: Pop Rock

Revisada por GuitarAcordeS
Acorde D
D
Acorde Bm
Bm
Acorde G
G
Acorde A
A
INTRO 
E-|----------|----------|----------|----------|----------|----------| 
B-|----------|----------|----------|----------|------7-8-|-10--7-10-| 
G-|------7---|----------|---7------|----------|-7-9------|----------|
D-|-7--9---7-|-7-----7--|-9-----9--|------7-9-|----------|----------| 
A-|----------|----9-----|----------|----------|----------|----------| 
E-|----------|----------|----------|----------|----------|----------| 

E-|--7--10-7-|--------7-|----------|----------|----------|----------|
B-|----------|----------|10------7-|-7--------|-7--------|----------|
G-|----------|----------|----------|-----9--7-|---9--7---|-7--------| 
D-|----------|----------|----------|----------|--------9-|------7-9-|
A-|----------|----------|----------|----------|----------|----------|
E-|----------|----------|----------|----------|----------|----------|

E-|----------|----------|----------|----------|
B-|------7-8-|-10---8-7-|----------|-7--------|
G-|-7-9------|----------|-9---7--9-|----9--7--| 
D-|----------|----------|----------|----------|
A-|----------|----------|----------|----------|
E-|----------|----------|----------|----------|

   D                 A                      Bm         G   
A veces llega un momento en que  te haces viejo de repente
       D           A              Bm          G   
sin arrugas en la frente pero con ganas de morir
    D             A           Bm            G  
Paseando por las calles todo tiene igual color
          D               A           G    A      D  
siento que algo hecho en falta no se si sera el amor 

        D              A            Bm           G  
Me despierto por las noches entre una gran confusion
       D          A        Bm          G  
esta gran melancolia esta acabando conmigo
        D             A            Bm           G  
Siento que me vuelvo loco y  me sumerjo en el alcohol
       D              A           G    A         D  
las estrellas por la noche han perdido su esplendor

        D              A              Bm          G  
He buscado en los desiertos de la tierra del dolor
           D             A            Bm             G  
y no he hallado mas respuesta que espejismos de ilusion
         D             A           Bm         G       
He hablado con las montañas de la desesperacion
     D             A            G     A     D  
y su respuesta era solo el eco sordo de mi voz 

  D                 A                      Bm         G   A
 veces llega un momento en que  te haces viejo de repente
       D           A              Bm          G   
sin arrugas en la frente pero con ganas de morir
    D             A           Bm            G  
Paseando por las calles todo tiene igual color
           D               A           G    A      D  
siento que algo hecho en falta no se si sera el amor
FUENTE: Webs de Acordes

Aprende con Video Lecciones de Celtas Cortos:
  · Videotutoriales de Celtas Cortos
Otras Canciones para Guitarra que te pueden interesar:
Tablaturas de Ricardo Arjona Canciones de Maná Acordes de Oasis

Todas las canciones son interpretaciones propias y personales de sus transcriptores. El material contenido en esta página es para exclusivo uso privado, por lo que queda prohibida la reproducción total o parcial así como su uso para fines comerciales.

Contactar : Aviso Legal : Videolecciones : Tablaturas : Webmasters : Mapa Web
© GuitarAcordeS.com