cerrar
menos
más
Recursos Canciones
« En PDF para Imprimir     Acordes y Tablaturas para Guitarra, Canciones y Tabs de tus artistas Share

Coti

Ya Pasó

TRANSCRIPCIÓN: Enrique Moraño
+INFO: emorano@hotmail.com
ALBUM: MALDITAS CANCIONES
PAÍS: Argentina
GENERO: Pop Rock

 
Acorde A
A
Acorde G
G
Acorde C
C
Acorde D
D
Acorde Am
Am
Acorde Em
Em
Acorde Bm
Bm
Intro:
    G                             A
E-||-----------------------------|-----------------------------|
B-||----8---7-8---10--8---7-8-7-8|----8---7-8---10--8---7-8-7-8|
G-||-----------------------------|9----------------------------|
D-||-----------------------------|-----------------------------|
A-||-----------------------------|-----------------------------|
E-||-----------------------------|-----------------------------|

    C                             G
E-||-----------------------------|-----------------------------|
B-||----8---7-8---10--8---7-8-7-8|----8---7-8---10--8---7-8-7-8|
G-||-----------------------------|7----------------------------|
D-||10---------------------------|-----------------------------|
A-||-----------------------------|-----------------------------|
E-||-----------------------------|-----------------------------|


    G                             A
E-||-----------------------------|-----------------------------|
B-||----8---7-8---10--8---7-8-7-8|----8---7-8---10--8---7-8-7-8|
G-||-----------------------------|9----------------------------|
D-||-----------------------------|-----------------------------|
A-||-----------------------------|-----------------------------|
E-||-----------------------------|-----------------------------|

    Am                            D
E-||-----------------------------|-----------------------------|
B-||----8---7-8---10--8---7-8-7-8|----8---7-8---10--8---7-8-7-8|
G-||-----------------------------|7----------------------------|
D-||10---------------------------|-----------------------------|
A-||-----------------------------|-----------------------------|
E-||-----------------------------|-----------------------------|


       G                             C
Nos espera la carretera, las veinte millas
            Am                    D
El viento duele pero gasta las heridas
         G             Bm          Em
Todo el daño que sin querer nos hicimos
           C           Am         D
Está muy claro que ya no será lo mismo

      C      D      G
Pero yaaaaa paaaaa-sóoooo
      C             D        G    C G
Pero ya pasó, ya pasó, ya pasó


       G                          C
Nos esperan luces de ciudades perdidas
          Am                          D
Y noches sin las esperanzas de otros días
         G               Bm         Em    D
Todo el daño que sin querer pude hacerte
      C            Am         D
Te repito que lo siento nuevamente


      C      D      G
Pero yaaaaa paaaaa-sóoooo
      C             D        G    C G
Pero ya pasó, ya pasó, ya pasó
      C      D      G
Pero yaaaaa paaaaa-sóoooo
      C             D        G    C G
Pero ya pasó, ya pasó, ya pasó


     C                        D
Como árboles que pasan, como todas esas casas
       Em    A
De ningún lugar
                   Am                     D
Se van quedando atrás, se van quedando atrás
     C                             D
Como alguien que te espera y el futuro desespera
          Em                    A
No hagas caso lo que dice tu cabeza
               Am                 D
Ya no pienses más, ya no pienses más


(intro)


       G                             C
Nos espera la carretera, las veinte millas
            Am                    D
El viento duele pero gasta las heridas
         G             Bm          Em   D
Todo el daño que sin querer nos hicimos
           C           Am         D
Está muy claro que ya no será lo mismo

      C      D      G
Pero yaaaaa paaaaa-sóoooo
      C             D        G    C G
Pero ya pasó, ya pasó, ya pasó
      C      D      G
Pero yaaaaa paaaaa-sóoooo
      C             D        G    C G
Pero ya pasó, ya pasó, ya pasó


C G   C G


 C       G        C   G        C     G        C G
Nos espera la carretera, las veinte millas
      c     G       C G         C     G
Las veinte millas,        las veinte millas

C G   C G   C G
FUENTE: webs de acordes

Aprende con Video Lecciones de Coti:
  · Videotutoriales de Coti
Otras Canciones para Guitarra que te pueden interesar:
Tablaturas de Ricardo Arjona Canciones de Maná Acordes de Oasis

Todas las canciones son interpretaciones propias y personales de sus transcriptores. El material contenido en esta página es para exclusivo uso privado, por lo que queda prohibida la reproducción total o parcial así como su uso para fines comerciales.

Contactar : Aviso Legal : Videolecciones : Tablaturas : Webmasters : Mapa Web
© GuitarAcordeS.com