cerrar
menos
más
Recursos Canciones
« En PDF para Imprimir     Acordes y Tablaturas para Guitarra, Canciones y Tabs de tus artistas Share

Counting Crows

Mercury

TRANSCRIPCIÓN: Michael A. Mazur
+INFO: mmazur@wpi.edu
ALBUM: RECOVERING THE SATELLITES
PAÍS: USA
GENERO: Rock

 
Acorde Eb*6
Eb
*=traste6

Acorde Ab*4
Ab
*=traste4

Acorde Bb
Bb
Intro and main riff:

|-----0-----------|----0--------------|
|--------0--2/3\2-|-------0-----0-----|
|-----------2/3\2-|-0--------------0--| Guitar 1 (all of guitar 1
|-----------2/3\2-|-0-----------------| is played with a slide)
|-----------2/3\2-|-0-----------------|
|--0--------------|-0--------0--------|

Verse: (guitar 1 plays main riff over Eb)
|/5--------5--------|
|/5--5-----5--------|
|/5-----5--5--5-----| Guitar 1 plays this for the Ab chord
|/5--------5-----5--| 
|/5--------5--------|
|/5--------5--------|

Eb
She is trapped inside a month of grey
And they take a little every day
         Ab
She is a victim of her own responses
                                  Eb
Shackled to a heart that wants to settle
And the runs away

Chorus:
   Bb                  Ab
|/7--------7--------|/5--------5--------|
|/7--7-----7--------|/5--5-----5--------|
|/7-----7--7--7-----|/5-----5--5--5-----| Guitar 1
|/7--------7-----7--|/5--------5-----5--| 
|/7--------7--------|/5--------5--------|
|/7--------7--------|/5--------5--------|

       Bb               Ab
It's a sin to be fading endlessly
                  Eb (guitar 1 plays main riff)
Yeah, but she's alright with me

She is leaving on a walkaway
She is leaving me in disarray
In the absence of a place to be
She stands there looking back at me
Hesitates, and then turns away
She'll change so suddenly
She's just like mercury
Yeah, but she's alright with me

Bridge:
|/12--|
|/12--|
|/12--| Guitar 1 plays this at the end of the chorus, and then
|/12--| plays the main riff over the bridge
|/12--|
|/12--|

|------------------------------|
|--7--7--7--7--9--9b(10)r9--9--| Guitar 2 (trem. picked)
|------------------------------|
|------------------------------|

(Guitar 1 plays last of main riff once)

Keep some sorrow in your
hearts and minds
For the things that die before their time
For the restlessly abandoned homes
The tired and weary rambler's bones
And stay beside me where I lie
She's entwined in me
Crazy as can be
Yeah, but she's alright with me
FUENTE: Webs de Acordes

Aprende con Video Lecciones de Counting Crows:
  · Videotutoriales de Counting Crows
Otras Canciones para Guitarra que te pueden interesar:
Tablaturas de U2 Canciones de Fito & Fitipaldis Acordes de Red Hot Chili Peppers

Todas las canciones son interpretaciones propias y personales de sus transcriptores. El material contenido en esta página es para exclusivo uso privado, por lo que queda prohibida la reproducción total o parcial así como su uso para fines comerciales.

Contactar : Aviso Legal : Videolecciones : Tablaturas : Webmasters : Mapa Web
© GuitarAcordeS.com