cerrar
menos
más
Recursos Canciones
« En PDF para Imprimir     Acordes y Tablaturas para Guitarra, Canciones y Tabs de tus artistas Share

Eric Clapton

Lay Down Sally

TRANSCRIPCIÓN: Desconocido
+INFO: Desconocido
ALBUM: SLOWHAND
PAÍS: Inglaterra
GENERO: Rock

 
Acorde A
A
Acorde E
E
Acorde D
D
Intro:

 A
---------------------------------------------
---------------------------------------------
-~-0-0-0---0-------2-~--------0-~-0---2------
---------4---4-2---2----------2---2-4-2------
-------------------0--------0----------------
------------------------3s5--------------3s5-

---------------------------------------------------------0-2-2-|
---------------------------------------------------------------|
2-0-0-0-0---2-----------2-0-0---0---2--2-2-~-------2-2-2-------|
2---------4-------------2-----4---4----------------2-2-2-------|
0-------------x-x-~-----0-------------------------0------------|
--------------------3s5-----------------------3s5--------------|

Verses:
   A                                                                    D
(1)there is nothing that is wrong in wanting you to      stay here with me
(2)the sun aint nearly on the rise and we still got the moon and stars above
(3)i long to see the morning light             coloring your face so dreamily

   A                                                                    D
 i know you got somewhere to go but wont you make your self at home and stay with me
underneath the velvet skies           love is all that matters wont you stay with me
so dont you go and say goodbye        you can lay your worries down and stay with me

             E
and dont you ever leave

Chorus:
A                    D
lay down sally   and rest herein my arms
E                                       A
dont you think you wont someone to talk to
A                    D
lay down sally    no need to leave so soon
E                                       A
ive been trying all night long just to talk to you
FUENTE: Webs de Acordes

Aprende con Video Lecciones de Eric Clapton:
  · Videotutoriales de Eric Clapton
Otras Canciones para Guitarra que te pueden interesar:
Tablaturas de U2 Canciones de Queen Acordes de Fito & Fitipaldis

Todas las canciones son interpretaciones propias y personales de sus transcriptores. El material contenido en esta página es para exclusivo uso privado, por lo que queda prohibida la reproducción total o parcial así como su uso para fines comerciales.

Contactar : Aviso Legal : Videolecciones : Tablaturas : Webmasters : Mapa Web
© GuitarAcordeS.com