cerrar
menos
más
Recursos Canciones
« En PDF para Imprimir     Acordes y Tablaturas para Guitarra, Canciones y Tabs de tus artistas Share

Extremoduro

Villancico del Rey de Extremadura

TRANSCRIPCIÓN: Ignacio Garcia Ferrando
+INFO: nachopua@terra.es
ALBUM: CANCIONES PROHIBIDAS
PAÍS: España
GENERO: Rock

 
Acorde G7
G7
Acorde C
C
Acorde F
F
Acorde G5*3
G5
*=traste3

Acorde A5
A5
Acorde F5
F5
Acorde E5
E5
                  x3
E||-0-12-0-10-0-8--|-8--8-6--0-6-0-7-0-8-0-9-0-10-0-11-0-12b---|
B||----------------|-------------------------------------------|
G||----------------|-------------------------------------------|
D||----------------|-------------------------------------------|
A||----------------|-------------------------------------------|
E||----------------|-------------------------------------------|

                  G7  C                   F
La vida no me sonrie, me cago en la humanidad
                    G7   C                  F 
Hace un frio de cojones, va a llegar la navidad
C                      G7   C             F                                 
Y si nos queda algun diente comeremos turron,
C                       G7   C              F
Me estoy haciendo de vientre dentro del corazon.
G5                            A5
Y no me importa que los reyes ya no vengan para mi,
G5                          F5                  E5
Con que vengan los camellos soy bastardos mas feliz
                                           
E||---------------------------------------------------------------|
B||---------------------------------------------------------------|
G||---------------------------------------------------------------|
D||---6-6-6--7-7-7---------7-7-7--6-6-6--7-7-7---------7-7-7--6---|
A||---4-4-4--5-5-5--7-7-7--5-5-5--4-4-4--5-5-5--7-7-7--5-5-5--4---|
E||-----------------5-5-5-----------------------5-5-5-------------|

C
Noche de paz, noche de amor
G7                  C
Todos contra todos, me cago en dios
F                           C
Y del cielo una estrella vendra
G7                C
Es un cuete espacial
C
Noche de paz, noche de amor
G7          C
Una tregua, me cago en dios
F                        C
Y del cielo una mierda caera
G7               C
Es un cuete nuclear

C             C
Noche de paz  noche de amor   
C             C
Noche de paz  me cago en dios
FUENTE: Webs de Acordes

Aprende con Video Lecciones de Extremoduro:
  · Videotutoriales de Extremoduro
Otras Canciones para Guitarra que te pueden interesar:
Tablaturas de U2 Canciones de Fito & Fitipaldis Acordes de Red Hot Chili Peppers

Todas las canciones son interpretaciones propias y personales de sus transcriptores. El material contenido en esta página es para exclusivo uso privado, por lo que queda prohibida la reproducción total o parcial así como su uso para fines comerciales.

Contactar : Aviso Legal : Videolecciones : Tablaturas : Webmasters : Mapa Web
© GuitarAcordeS.com