cerrar
menos
más
Recursos Canciones
« En PDF para Imprimir     Acordes y Tablaturas para Guitarra, Canciones y Tabs de tus artistas Share

Garbage

I Think I'm Paranoid

TRANSCRIPCIÓN: axisallareas
+INFO: Desconocido
ALBUM: VERSION 2.0
PAÍS: USA
GENERO: Rock Alternativo

 
Acorde G
G
Acorde F
F
Acorde F5
F5
Acorde Eb5*6
Eb5
*=traste6

Acorde C5*3
C5
*=traste3

Acorde G5*3
G5
*=traste3

Acorde D5*5
D5
*=traste5

Acorde Bb5
Bb5
       G     F     F5    Eb5   C5    G5    D5    Bb5
E|-----3-----1-----------------------------------------|
B|-----------1-----------------------------------------|
G|-----------2-----------------5-----------7-----3-----|
D|-----------3-----3-----8-----5-----5-----7-----3-----|
A|-----2-----3-----3-----6-----3-----5-----5-----1-----|
E|-----3-----1-----1-----6-----------3-----------------|

Intro Riff:

E|---------------------------|---------------------------|
B|--------12-------10--------|----------------------10---|
G|---12-------12--------10---|--------12-------10--------|
D|---------------------------|---12--------12------------|
A|---------------------------|---------------------------|
E|---------------------------|---------------------------|

Verse 1:
Play the intro riff for the verse.

You can look, but you can't touch 
I don't think I like you much 
Heaven knows what a girl can do 
Heaven knows what you've got to prove 


Pre chorus:
Listen to the chorus for the chord changes. 
The pre chorus is a bit complicated but when you get it down its pretty simple. 

G5      F5      Eb5     C5

E|--------------------------------------|
B|--------------------------------------|
G|----------------------------5-----5---|
D|---------------------8----8/5-----5---|
A|---5-----5--3----3---6----6/3-----3---|
E|---3-----3--1----1---6----6-----------|

I think I'm paranoid 
And complicated 
I think I'm paranoid 
Manipulate it 

Riff between pre chorus and the chrous.

E|-------------------------------------------------|
B|--------------11-------------11-------------11---|
G|--------14--------------14-------------14--------|
D|---13--------------13-------------13-------------|
A|-------------------------------------------------|
E|-------------------------------------------------|

Chorus 1:
The Chorus is a couple easy chords and a couple octives. I have the octives noted as CO1 & OC2.

Chords Used For The Chorus

     Bb5   C5    OC1    OC2
E|----------------------------|
B|----------------------------|
G|----------------9-----7-----|
D|---8-----10-----X-----X-----|
A|---8-----8------7-----5-----|
E|---6-----8------------------|


Bb5 (bend) 
Bend me, break me 

C5 (anyway)
Anyway you need me 

Bb5 (all)         oc1 (after you)
All I want is you 

Bb5 (bend)
Bend me, break me 

F5 (breaking)
Breaking down is easy 

Bb5 (all)         oc2 (after you)
All I want is you 


Verse 2:
Play the intro riff for the verse.

I fall down just to give you a thrill 
Prop me up with another pill 
If I should fail, if I should fold 
I nailed my faith to the sticking pole 

G5      F5      Eb5     C5

I think I'm paranoid 
And complicated 
I think I'm paranoid 
Manipulate it 

Riff between pre chorus and the chrous.

E|-------------------------------------------------|
B|--------------11-------------11-------------11---|
G|--------14--------------14-------------14--------|
D|---13--------------13-------------13-------------|
A|-------------------------------------------------|
E|-------------------------------------------------|

Chorus 2:

Chords Used For The Chorus

     Bb5   C5    OC1    OC2
E|----------------------------|
B|----------------------------|
G|----------------9-----7-----|
D|---8-----10-----X-----X-----|
A|---8-----8------7-----5-----|
E|---6-----8------------------|


Bb5 (bend) 
Bend me, break me 

C5 (anyway)
Anyway you need me 

Bb5 (all)         oc1 (after you)
All I want is you 

Bb5 (bend)
Bend me, break me 

F5 (breaking)
Breaking down is easy 

Bb5 (all)         oc2 (after you)
All I want is you 


Interlude Guitar Solo Part:

This is a pretty easy part to play its just a couple notes and one chords.


E|-------------------------------------------------------------|
B|-------------------------------------------------------------|
G|------------------------------5------------------------------|
D|------------------------------5------------------------------|
A|---7--------7--------7--------3---7--------7--------7--------|
E|---0---12---0---12---0---12-------0---12---0---12---0---12---|

E|-------------------------------------------------|
B|--------------11-------------11-------------11---|
G|--------14--------------14-------------14--------|
D|---13--------------13-------------13-------------|
A|-------------------------------------------------|
E|-------------------------------------------------|

Chorus 3:

Bb5 (bend) 
Bend me, break me 

F5 (anyway)
Anyway you need me 

Bb5 (all)         D5 (after you)
All I want is you 

Bb5 (bend)
Bend me, break me 

F5 (breaking)
Breaking down is easy 

Bb5 (all)         D5 (after you)
All I want is you 

Outro

The outro is not as hard as it seems just three chords and a riff. 

Chords Used For The Outro
 
     G5    F5    C5
E|-------------------------------------|
B|-------------------------------------|
G|-------------------------------------|
D|---5-----3-----8-8-8-8-8-8-8-8-8-8---|
A|---5-----3-----6-6-6-6-6-6-6-6-6-6---|
E|---3-----1-----6-6-6-6-6-6-6-6-6-6---|

Outro Riff
E|-----------------------------------------3--------------------------|
B|--------------------------------------------------------------------|
G|---0---3---0---5 benb up 1 release 5----------0---3---0---8---7-----|
D|--------------------------------------------------------------------|
A|--------------------------------------------------------------------|
E|--------------------------------------------------------------------|


Steal me, deal me, anyway you heal me 
Maim me, tame me, you can never change me 
Love me, like me, come ahead and fight me 
Please me, tease me, go ahead and leave me 

Outro:
Play intro riff listen to song for changes. 

Bend me 
Break me 
Anyway you need me 
As long as I want you baby it's all right 

Bend me 
Break me 
Any way you need me 
As long as I want you baby it's all right
FUENTE: webs de acordes

Aprende con Video Lecciones de Garbage:
  · Videotutoriales de Garbage
Otras Canciones para Guitarra que te pueden interesar:
Tablaturas de Coldplay Canciones de The Cranberries Acordes de Linkin Park

Todas las canciones son interpretaciones propias y personales de sus transcriptores. El material contenido en esta página es para exclusivo uso privado, por lo que queda prohibida la reproducción total o parcial así como su uso para fines comerciales.

Contactar : Aviso Legal : Videolecciones : Tablaturas : Webmasters : Mapa Web
© GuitarAcordeS.com