cerrar
menos
más
Recursos Canciones
« En PDF para Imprimir     Acordes y Tablaturas para Guitarra, Canciones y Tabs de tus artistas Share

Garbage

Milk

TRANSCRIPCIÓN: axisallareas
+INFO: Desconocido
ALBUM: GARBAGE
PAÍS: USA
GENERO: Rock Alternativo

 
Acorde Am
Am
Acorde B
B
Acorde C
C
Acorde Cm*3
Cm
*=traste3

Acorde Em
Em
Acorde F#
F#
Intro:

E|----0--------0--------|--0-----------------|--------------------|-0--|---|----|
B|-15---15-13-----13-12-|----12-----0--------|--0--------0------0-|----|---|----|
G|-16---16-14-----14-12-|----12-14-----14-12-|----12-11-----11----|----|---|----|
D|----------------------|-------16-----16-14-|----14-12-----12----|----|---|----|
A|----------------------|--------------------|--------------------|----|---|----|
E|----------------------|--------------------|--------------------|----|---|----|

verse 1:
Em      Am    Em       Am              Em         Am
   I am milk, and I am red hot kitchen,  and I am cool

Em          Am           (appreg.)Em      Am   Em        Am
Cool as the deep blue ocean.         I am lost,  so I am cruel

Em         Am                 Em         Am
But I'd be love and sweetness,  if I had you

chorus1:

Am               C           F#
I'm waiting, I'm waiting for you

    Am           C           B     C
I'm waiting, I'm waiting for you

Interlude between the chorus and the second verse. Its like the intro but different. 


E|----0--------0--------|--0-----------------|
B|-15---15-13-----13-12-|----12-----0--------|
G|-16---16-14-----14-12-|----12-14-----14-12-|
D|----------------------|-------16-----16-14-|
A|----------------------|--------------------|
E|----------------------|--------------------|


Verse 2:

Em      Am   Em         Am
   I am weak,  but I am strong

Em         Am             Em          Am
And I will use my tears to  bring you home

Chorus2:

Am                   C           F#
And I'm waiting, I'm waiting for you

        Am           C           F#
And I'm waiting, I'm waiting for you

    Am          C          Em
I'm aching, I'm aching for you


Verse 3:

Em      Am   Em         Am             Em         Am
   I am milk,  and I am red hot kitchen, and I am cool

Em          Am           (appreg.)
Cool as the deep blue ocean.

Chorus 3:

Am               C           Em
I'm waiting, I'm waiting for you

        Am          C          Em
And I'm aching, I'm aching for you

        Am           C           Em
And I'm waiting, I'm waiting for you

        Am           C           Em
And I'm waiting, I'm waiting for you

I'm waiting, I'm waiting, I'm waiting for you
FUENTE: webs de acordes

Aprende con Video Lecciones de Garbage:
  · Videotutoriales de Garbage
Otras Canciones para Guitarra que te pueden interesar:
Tablaturas de Coldplay Canciones de The Cranberries Acordes de Linkin Park

Todas las canciones son interpretaciones propias y personales de sus transcriptores. El material contenido en esta página es para exclusivo uso privado, por lo que queda prohibida la reproducción total o parcial así como su uso para fines comerciales.

Contactar : Aviso Legal : Videolecciones : Tablaturas : Webmasters : Mapa Web
© GuitarAcordeS.com