cerrar
menos
más
Recursos Canciones
« En PDF para Imprimir     Acordes y Tablaturas para Guitarra, Canciones y Tabs de tus artistas Share

Jimi Hendrix

Rainy Day, Dream Away

TRANSCRIPCIÓN: Miller
+INFO: justmiller@mindspring.com
ALBUM: ELECTRIC LADYLAND
PAÍS: USA
GENERO: Rock

 
Acorde D9*5
D9
*=traste5

Acorde G7*3
G7
*=traste3

Acorde C9
C9
Acorde C7*3
C7
*=traste3

Acorde A7
A7
Acorde G9
G9
Acorde F9
F9
Acorde F#9
F#9
Acorde C#9
C#9
Acorde Bb7
Bb7
Acorde G
G
Acorde D
D
Intro: D 

D9
Hey man, take a look out the window and see what's happening

Hey man, it's raining

It's rainin' outside man

Aw, don't worry about that

Everything's gonna be everything

We'll get into somethin' real nice you know

Sit back and groove on a rainy day

Yeah

Yeah I see what you mean brother, lay back and groove.

Little linking phrase: 

|-----------------------|
|-----------------------|
|-----------------------|
|--0----3---4--5--------|
|-----------------------|
|-----------------3-----|

G7         D9
Rainy day, dream away

A7      C9          G7
Let the sun take a holiday

G7                D9
Flowers bathe and see the children play

A7           C7          G7
Lay back and groove on a rainy day.

           F9                                                    F9
F#9
Well I can see a bunch of wet creatures, look at them on the run

    G9                                                        G9 F#9
The carnival traffic noise it sings the tune splashing up and

F9                                                           F9 F#9
Even the ducks can groove rain bathing in the park side pool

        G9
And I'm leanin' out my window sill digging everything

Transition part:  G 

   D9 C#9  C9       Bb7  A7  G7
|--5---4---3---|---------------------------------|
|--5---4---3---|---------------------------------|
|--5---4---3---|---------------------------------|
|--4---3---2---|-----6---5---3-------------------|
|--5---4---3---|-----5---4---2-------------------|
|--------------|-----6---5---3-------------------|
             And you too.

     Bb7  A7  G7                      Bb7  A7  G7
|------------------------------------------------------------------|
|------------------------------------------------------------------|
|------------------------------------------------------------------|
|-----6---5---3------------------------6---5---3-------------------|
|-----5---4---2------------------------5---4---2-------------------|
|-----6---5---3------------------------6---5---3-------------------|

     Bb7  A7  G7                      Bb7  A7  G7 C#9    D9
|--------------------------------------------------4-----5---------|
|--------------------------------------------------4-----5---------|
|--------------------------------------------------4-----5---------|
|-----6---5---3------------------------6---5---3---3-----4---------|
|-----5---4---2------------------------5---4---2---4-----5---------|
|-----6---5---3------------------------6---5---3-------------------|

Ending: D

D9

Rainy day, rain all day

Ain't no use in gettin' uptight

Just let it groove its own way

Let it drain your worries away yeah

Lay back and groove on a rainy day hey

Lay back and dream on a rainy day
FUENTE: Webs de Acordes

Aprende con Video Lecciones de Jimi Hendrix:
  · Videotutoriales de Jimi Hendrix
Otras Canciones para Guitarra que te pueden interesar:
Tablaturas de U2 Canciones de Queen Acordes de Fito & Fitipaldis

Todas las canciones son interpretaciones propias y personales de sus transcriptores. El material contenido en esta página es para exclusivo uso privado, por lo que queda prohibida la reproducción total o parcial así como su uso para fines comerciales.

Contactar : Aviso Legal : Videolecciones : Tablaturas : Webmasters : Mapa Web
© GuitarAcordeS.com