cerrar
menos
más
Recursos Canciones
« En PDF para Imprimir     Acordes y Tablaturas para Guitarra, Canciones y Tabs de tus artistas Share

La Fuga

Miguel

TRANSCRIPCIÓN: Iker
+INFO: iker_txipi@hotmail.com
ALBUM: A GOLPES… DE ROCK N' ROLL
PAÍS: España
GENERO: Rock

 
Acorde Do
Do
Acorde Lam
Lam
Acorde Sol
Sol
Acorde Mim
Mim
Acorde Fa
Fa
Guitarra 1
DO - LAm - DO - LAm

Guitarra 2

e|------------------------------------------------------------
b|------------------------------------------------------------
g|---5-4-5---5-4-5---9-7-4---9-7-4---5-4-5---5-4-5---9-7-4---7
d|------------------------------------------------------------
a|------------------------------------------------------------
e|------------------------------------------------------------


DO                       SOL
Miguel duerme en la calle,
      LAm                   MIm
Juan XXIII, por la tarde lo verás
DO
tocando en la principal.

                     SOL
Su guitarra siempre fiel,
              LAm
duerme junto a él
                   MIm         DO
lo que saca pa' comer y pa' beber.

e|----------------------------
b|----------------------------
g|---5-4-5---5-4-5---9-7-4---7
d|----------------------------
a|----------------------------
e|----------------------------

FA              SOL
Canta un corazón,
                          DO
Que está cansado de vivir
                LAm       MIm
Siempre fuera de control,
FA              SOL
Busca la ilusión
                          DO
Que le vuelva a hacer reír
          LAm         MIm
Solo tiene una canción

DO                  SOL
Si hace frío abrígate
                    LAm
con cartones y la piel
                MIm
arrugada sabe que

DO                 SOL
es el precio de nacer
            LAm
lejos del dinero,
                 MIm
tan lejos del poder


Guitarra 1
DO - LAm - DO - LAm - FA - SOL - LAm - MIm

Guitarra 2

e|-----------------------------------  ----------------------10----------
b|-----10-12------------12-13-12-----  ----10-12----------------13-12----
g|--12-------12-----12---------------  --12--------12-----12-------------
d|-----------------------------------  ----------------------------------
a|-----------------------------------  ----------------------------------
e|-----------------------------------  ----------------------------------

e|----------10-12---10------------------10-12---10-----------------------
b|--12-13-----------------13--12---13--------------13--12----------------
g|-----------------------------------------------------------------------
d|-----------------------------------------------------------------------
a|-----------------------------------------------------------------------
e|-----------------------------------------------------------------------

e|------10--12--13--12--10--8--10--12--13--12----------------------------
b|--13-------------------------------------------------------------------
g|-----------------------------------------------------------------------
d|-----------------------------------------------------------------------
a|-----------------------------------------------------------------------
e|-----------------------------------------------------------------------


FA                SOL
Canta un corazón,
                       DO
Que está cansado de vivir
            LAm      MIm
Siempre fuera de control,
FA              SOL
Busca la ilusión
                          DO
Que le vuelva a hacer reír
         LAm         MIm
Solo tiene una canción

DO                SOL
Ayer Miguel se fue
                     LAm
a su entierro no fue ningún rey
                 MIm
nadie lloró por él.

DO                   SOL
Su guitarra se calló
                    LAm
pero su voz aún la puedo oír
                MIm
por la calle mayor


FA                SOL
Canta un corazón,
                       DO
Que está cansado de vivir
            LAm      MIm
Siempre fuera de control,
FA              SOL
Busca la ilusión
                          DO
Que le vuelva a hacer reír
         LAm         MIm
Solo tiene una canción

FA                    SOL
Canta un corazón… (se repite)
FUENTE: webs de acordes

Aprende con Video Lecciones de La Fuga:
  · Videotutoriales de La Fuga
Otras Canciones para Guitarra que te pueden interesar:
Tablaturas de U2 Canciones de Queen Acordes de Fito & Fitipaldis

Todas las canciones son interpretaciones propias y personales de sus transcriptores. El material contenido en esta página es para exclusivo uso privado, por lo que queda prohibida la reproducción total o parcial así como su uso para fines comerciales.

Contactar : Aviso Legal : Videolecciones : Tablaturas : Webmasters : Mapa Web
© GuitarAcordeS.com