cerrar
menos
más
Recursos Canciones
« En PDF para Imprimir     Acordes y Tablaturas para Guitarra, Canciones y Tabs de tus artistas Share

Led Zeppelin

Stairway To Heaven

TRANSCRIPCIÓN: Leonardo Falcón
+INFO: España
ALBUM: LED ZEPPELIN IV
PAÍS: Inglaterra
GENERO: Hard Rock

Revisada por GuitarAcordeS
Acorde Am
Am
Acorde E/A
E/A
Acorde C/G
C/G
Acorde D/F#
D/F#
Acorde Fmaj7
Fmaj7
Acorde G
G
Acorde D
D
Acorde C
C
Acorde Dsus4
Dsus4
Acorde Am7_2
Am7
Acorde Dsus2
Dsus2
Acorde Em
Em
Acorde G/B
G/B
Acorde F
F
Intro:

e-------5-7-----7-|-8-----8-2-----2-|-0---------0-----|-----------------|
B-----5-----5-----|---5-------3-----|---1---1-----1---|-0-1-1-----------|
G---5---------5---|-----5-------2---|-----2---------2-|-0-2-2-----------|
D-7-------6-------|-5-------4-------|-3---------------|-----------------|
A-----------------|-----------------|-----------------|-2-0-0---0--/8-7-|
E-----------------|-----------------|-----------------|-----------------|
 
e---------7-----7-|-8-----8-2-----2-|-0---------0-----|-----------------|
B-------5---5-----|---5-------3-----|---1---1-----1---|-0-1-1-----------|
G-----5-------5---|-----5-------2---|-----2---------2-|-0-2-2-----------|
D---7-----6-------|-5-------4-------|-3---------------|-----------------|
A-0---------------|-----------------|-----------------|-2-0-0-------0-2-|
E-----------------|-----------------|-----------------|-----------------|
 
e-------0-2-----2-|-0-----0----------|---------3-----3-|-3/2-----3-------|
B-----------3-----|---1-----0h1------|-1-----1---0-----|-----3-----------|
G-----0-------2---|-----2-------2----|---0---------0---|-------2---------|
D---2-----0-------|-3----------------|-----2-----------|-0---------------|
A-3---------------|---------0----0-2-|-3---------------|-------------0-2-|
E-----------------|------------------|---------3-------|-----------------|

e---------2-----2-|-0-----0----------|---------------2-|-0-0-0-----------|
B-------1---3-----|---1-----0-1------|-------1-----3---|-1-1-1-----------|
G-----0-------2---|-----2-------2----|-----0-----2-----|-2-2-2-----------|
D---2-----0-------|-3----------------|---2-----0-------|-3-3-3-----------|
A-3---------------|---------0----0-2-|-3---------------|-----------------|
E-----------------|------------------|-----------------|-----------------|

             Am        E/A            C/G        D/F#
   There's a lady who's sure all that glitters is gold 
Fmaj7                       G   Am
And she's buying a stairway to heaven. 
           Am             E/A           C/G            D/F#
  When she gets there she knows, if the stores are all closed 
Fmaj7                           G    Am
With a word she can get what she came for.
C  D   Fmaj7  Am           C        G          Dsus4  D
Ooh, ooh,       and she's buying a stairway to heaven. 

           C           D           Fmaj7       Am
There's a sign on the wall but she wants to be sure
             C              D             Fmaj7 
'Cause you know sometimes words have two meanings. 
       Am        E/A              C/G          D/F#
In a tree by the brook, there's a songbird who sings, 
          Fmaj7                    G   Am
Sometimes all of our thoughts are misgiven. 

Am  E/A  C/G  D/F#  Fmaj7  G  Am Am
(musica)

Am7  Am  Dsus4 D Dsus2  D              Am7   Am   Em  D  C   D \
  uuuuuuhhhh           it makes me wonder,                     /x2 veces

D           C      G/B         Am
There's a feeling I get when I look to the west, 
Am       C       G/B      Fmaj7     Am
And my spirit is crying for leaving. 
Am     C     G/B                   Am
In my thoughts I have seen rings of smoke through the trees, 
Am       C     G/B              Fmaj7  Am     
And the voices of those who stand looking. 

C  G/B  Am 

Am7  Am  Dsus4 D Dsus2  D              Am7   Am   Em  D  C   D \
  uuuuuuhhhh           it makes me wonder,                     /x2 veces

D         C             G/B      Am    
And it's whispered that soon if we all call the tune 
          C         G/B    Fmaj7    Am
Then the piper will lead us to reason. 
          C             G/B     Am   
And a new day will dawn for those who stand long 
          C         G/B    Fmaj7     Am  
And the forests will echo with laughter. 

C  G/B  Am 

Am7  Am  Dsus4 D Dsus2  D    Am7   Am   Em  D  C   D
(musica)
Am7  Am  Dsus4 D Dsus2  D              Am7   Am   Em  D  C   D
            ouououououo oh oh

C            G/B            Am                 
If there's a bustle in your hedgerow, don't be alarmed now, 
C           G/B                 Fmaj7  Am
It's just a spring clean for the May queen.
C              G/B               Am               
Yes, there are two paths you can go by, but in the long run 
C             G/B               Fmaj7      Am
There's still time to change the road you're on. 

C  G/B  Am 

Am7  Am  Dsus4 D Dsus2  D              Am7   Am   Em  D  C   D
                 Ooh, it makes me wonder, 
Am7  Am  Dsus4 D Dsus2  D              Am7   Am   Em  D  C   D
                 Ooh, it really makes me wonder. 

C            G/B             Am                   
Your head is humming and it won't go, in case you don't know, 
C           G/B           Fmaj7  Am
The piper's calling you to join him, 
C          G/B              Am                   
Dear lady, can you hear the wind blow, and did you know
C             G/B         Fmaj7      Am
Your stairway lies on the whispering wind. 

C   G/B   D     Dsus2 D Dsus4 (x3 veces)  D  

C___      Dsus2 D Dsus4 (x3 veces)  D  

C   G/B

Am  G   F	(x8 veces)
(musica y punteo)

Am        G                F     G  
And as we wind on down the road 
Am          G              F     G  
Our shadows taller than our soul. 
Am            G            F     G  
There walks a lady we all know 
Am                G                 F    G  
Who shines white light and wants to show 
Am        G                   F     G  
How everything still turns to gold. 
Am         G           F      G  
And if you listen very hard 
Am           G               F      G  
The tune will come to you at last. 
Am           G              F      G     
When all are one and one is all 
Am       G               F      G  
To be a rock and not to roll. 

Am  G   F (x4 veces)
(musica y punteo)

And she's buying a stairway to heaven.
FUENTE: Webs de Acordes

Aprende con Video Lecciones de Led Zeppelin:
  · Videotutoriales de Led Zeppelin
Otras Canciones para Guitarra que te pueden interesar:
Tablaturas de Gun's 'N' Roses Canciones de AC-DC Acordes de Pink Floyd

Todas las canciones son interpretaciones propias y personales de sus transcriptores. El material contenido en esta página es para exclusivo uso privado, por lo que queda prohibida la reproducción total o parcial así como su uso para fines comerciales.

Contactar : Aviso Legal : Videolecciones : Tablaturas : Webmasters : Mapa Web
© GuitarAcordeS.com