cerrar
menos
más
Recursos Canciones
« En PDF para Imprimir     Acordes y Tablaturas para Guitarra, Canciones y Tabs de tus artistas Share

Medina Azahara

Palabras De Libertad

TRANSCRIPCIÓN: Gerardo
+INFO: ghylq@yahoo.com.mx
ALBUM: DONDE ESTá LA LUZ
PAÍS: España
GENERO: Rock

 
Acorde D
D
Acorde A
A
Acorde G
G
Acorde A7
A7
Acorde B
B
Acorde E
E
Intro:

e//------2-3-5-3-2-------------------------
B//----------------5---(4 VECES)-----------
G//----------------------------------------
D//----------------------------------------
A//----------------------------------------
E//----------------------------------------


D
Quisiera coger el viento
                  A
que pasa cerca de mí
D 
quisiera cerrar los ojos
                    A
detener el tiempo aquí. 

D
Quisiera poder mirarte
                   A
quedarme dentro de tí 
G                   A
quisiera ser la esperanza
G                 D 
que te ayude a vivir.



e//------2-3-5-3-2-------------------------
B//----------------5---(4 VECES)-----------
G//----------------------------------------
D//----------------------------------------
A//----------------------------------------
E//----------------------------------------


D
Quisiera romper la pena
                   A 
secar tu llanto de sed
D 
ser libre como tu sueño
                A      
y ver el dia nacer. 

D
Oscura como la noche
                 A
se acerca la soledad
G                    A 
y por las calles se oyen
G                 A
palabras de libertad. 

G
Ser el dueño de tus labios
de tu boca despertar 
los sentimientos de un beso
              A7
y robar tu libertad. 



e//------2-3-5-3-2-------------------------
B//----------------5---(4 VECES)-----------
G//----------------------------------------
D//----------------------------------------
A//----------------------------------------
E//----------------------------------------


Quisiera coger el viento .......
Oscura como la noche...........

Ser el dueño de tus labios .....


e//------2-3-5-3-2-------------------------
B//----------------5---(4 VECES)-----------
G//----------------------------------------
D//----------------------------------------
A//----------------------------------------
E//----------------------------------------
FUENTE: Webs de Acordes

Aprende con Video Lecciones de Medina Azahara:
  · Videotutoriales de Medina Azahara
Otras Canciones para Guitarra que te pueden interesar:
Tablaturas de U2 Canciones de Fito & Fitipaldis Acordes de Red Hot Chili Peppers

Todas las canciones son interpretaciones propias y personales de sus transcriptores. El material contenido en esta página es para exclusivo uso privado, por lo que queda prohibida la reproducción total o parcial así como su uso para fines comerciales.

Contactar : Aviso Legal : Videolecciones : Tablaturas : Webmasters : Mapa Web
© GuitarAcordeS.com