cerrar
menos
más
Recursos Canciones
« En PDF para Imprimir     Acordes y Tablaturas para Guitarra, Canciones y Tabs de tus artistas Share

Michael Jackson

The Lost Children

TRANSCRIPCIÓN: Julia Heaven [a]
+INFO: Desconocido
ALBUM: INVINCIBLE (2001)
PAÍS: USA
GENERO: Pop

 
Acorde F
F
Acorde A
A
Acorde F#
F#
Acorde C/G
C/G
Acorde A#
A#
Acorde C
C
Acorde Am7
Am7
Acorde Dm
Dm
Acorde Am
Am
Acorde Gm*3
Gm
*=traste3

Acorde Fm
Fm
Acorde A#m
A#m
Acorde E
E
Acorde G#m*4
G#m
*=traste4

Acorde D#*6
D#
*=traste6

Acorde D#m*6
D#m
*=traste6

Acorde C#m*4
C#m
*=traste4

Acorde B
B
Intro:

  F   A#    F   A#     F    A#     F    C/G
e|-1---------------------------------------|
B|-----------1-----------1-----------------|
G|-----------------------------------2---0-|
D|-----------------------------------------|
A|-----0-1-0-3-----0-1-0-3----0-1----0-----|
E|-1-3-----------3----------3------------3-|


Verse 1:
F    A#         F          A#         F    
We pray for our fathers, pray for our mothers
A#           F       C
Wishing our families well
F         A#           F            A#           F
We sing songs for the wishing, of those who are kissing
     A#         F         Am7
But not for the missing


CHORUS 1:
                  Dm           Am
So this one's for all the lost children
                Dm           Am
This one's for all the lost children
               A#           Am                     Gm
This one's for all the lost children, wishing them well
                 F
And wishing them home


Instrumental:
  F   A#    F   A#     F    A#     F    C/G
e|-1---------------------------------------|
B|-----------1-----------1-----------------|
G|-----------------------------------2---0-|
D|-----------------------------------------|
A|-----0-1-0-3-----0-1-0-3----0-1----0-----|
E|-1-3-----------3----------3------------3-|

  F   A#    F   A#     F    A#     F    C/G
e|-1---------------------------------------|
B|-----------1-----------1-----------------|
G|-----------------------------------2---0-|
D|-----------------------------------------|
A|-----0-1-0-3-----0-1-0-3----0-1----0-----|
E|-1-3-----------3----------3------------3-|


Verse 2:
     F    A#            F        A#           F
When you sit there addressing, counting your blessings
A#           F  C
Biding your time
      F   A#           F          A#          F
When you lay me down sleeping and my heart is weeping
A#              F     Am7
Because I'm keeping a place



(CHORUS 1)
                  Dm            Am
So this one's for all the lost children
                Dm            Am
This one's for all the lost children
              A#             Am                    Gm
This one's for all the lost children, wishing them well
                 F
And wishing them home


(Instrumental)
  F   A#    F   A#     F    A#     F    C/G
e|-1---------------------------------------|
B|-----------1-----------1-----------------|
G|-----------------------------------2---0-|
D|-----------------------------------------|
A|-----0-1-0-3-----0-1-0-3----0-1----0-----|
E|-1-3-----------3----------3------------3-|


Bridge:
A#m               Fm
Home with their fathers,
               A#m                Fm
Snug close and warm, loving their mothers
          E                G#m
I see the door simply wide open
                 E  G#m     D#     
But no one can find thee


CHORUS 2:
G#m        G#m           D#m
So pray for all the lost children
               G#m         D#m
Let's pray for all the lost children
              E           D#m                     C#m
Just think of all the lost children, wishing them well
           G#m           D#m
So pray for all the lost children
               G#m          D#m
Let's pray for all the lost children
              E             D#m                   C#m
Just think of all the lost children, wishing them well
                 B
and wishing them home 


Outro: 
  B  C#m  B    C#m  B     C#m    B   F#  
e|-------------------------------------|
B|-------------------------------------|
G|-------------------------------------|  (se repite hasta el final)
D|-----1-2-1-4---1-2-1--4----1-2--1----|
A|-2-4---------4-----------4---------4-|
E|-------------------------------------|
FUENTE: webs de acordes

Aprende con Video Lecciones de Michael Jackson:
  · Videotutoriales de Michael Jackson
Otras Canciones para Guitarra que te pueden interesar:
Tablaturas de The Beatles Canciones de Jarabe de Palo Acordes de Duncan Dhu

Todas las canciones son interpretaciones propias y personales de sus transcriptores. El material contenido en esta página es para exclusivo uso privado, por lo que queda prohibida la reproducción total o parcial así como su uso para fines comerciales.

Contactar : Aviso Legal : Videolecciones : Tablaturas : Webmasters : Mapa Web
© GuitarAcordeS.com