cerrar
menos
más
Recursos Canciones
« En PDF para Imprimir     Acordes y Tablaturas para Guitarra, Canciones y Tabs de tus artistas Share

Oasis

Rock 'N' Roll Star

TRANSCRIPCIÓN: Desconocido
+INFO: Desconocido
ALBUM: DEFINITELY MAYBE
PAÍS: Reino Unido
GENERO: Pop Rock

 
Acorde A
A
Acorde D
D
Acorde Bm
Bm
Acorde G
G
Acorde F#m
F#m
Acorde E
E
Acorde F#
F#
Intro:
 e ---------------------------------|
 B ---------------------------------|
 G --4b6--6r4--2-----2h4--4b6--6r4--|
 D --------------2h4----------------|
 A ---------------------------------|
 E ---------------------------------|
 
A       D
 
A       D
 
Bm      G
 
A       D
 
Verse 1:
 
A                             D
   I live my life in the city
 
A                             D
   And there's no easy way out
 
Bm                  G                     A  D
    The day's moving just too fast for me
 
A                                     D
   I Need some time in the sunshee-ine
 
A                          D
   Gotta slow it right down
 
Bm                  G                     A  D
    The day's moving just too fast for me
 
F#m                    D
 I live my life for the stars that shine
 
A
 People say it's just a waste of time
 
F#m                     D
 Then they said I should feed my head
 
A
 That to me was just a day in bed
 
F#m                     D
 I'll take my car and drive real far
 
A
 They're not concerned about the way we are
 
G
 In my mind my dreams are real
 
E
 Now you concerned about the way I feel
 
Chorus:
 
G                 D                              A   D
 Toniiiiiiiiiiiiiiiiight I'm a rock n' roll star
 
G                 D                              A   D
 Toniiiiiiiiiiiiiiiiight I'm a rock n' roll star
 
Verse 2:
 
A                             D
   I live my life in the city
 
A                             D
   And there's no easy way out
 
Bm                  G                     A  D
    The day's moving just too fast for me
 
A                                     D
   I Need some time in the sunshee-ine
 
A                          D
   Gotta slow it right down
 
Bm                  G                     A  D
    The day's moving just too fast for me
 
F#m                    D
 I live my life for the stars that shine
 
A
 People say it's just a waste of time
 
F#m                     D
 Then they said I should feed my head
 
A
 That to me was just a day in bed
 
F#m                     D
 I'll take my car and drive real far
 
A
 They're not concerned about the way we are
 
G
 In my mind my dreams are real
 
E
 Now you concerned about the way I feel
 
Chorus:
 
G                 D                              A   D
 Toniiiiiiiiiiiiiiiiight I'm a rock n' roll star
 
G                 D                              A   D
 Toniiiiiiiiiiiiiiiiight I'm a rock n' roll star
 
G                 D                              A   D
 Toniiiiiiiiiiiiiiiiight I'm a rock n' roll star
 
G                  F# G  E
 You're not down with who I am
 
A
 Look at you now, you're all in my hands Tonight
 
Solo:
 
 e-----------------------------------------------------------|
 B-----------------------------------------------------------|
 G---5---6---5----------------------------5------------------|
 D------------------7---5---7---5----7----------7------------|
 A-----------------------------------------------------------|
 E-----------------------------------------------------------|
 
 e---------------------------------------------------------|
 B------------------------------------8--------------------|
 G---5---6---5------------------7s9-------7b9r7----5-------|
 D------------------7---5---7------------------------------|
 A---------------------------------------------------------|
 E---------------------------------------------------------|
 
 e-----------------------------------|
 B-----------------------------------|
 G---6---7---7---6---7---6---7---6---|
 D-----------------------------------|
 A-----------------------------------|
 E-----------------------------------|
 
 e-----------------------------------------------------------|
 B-----------------------------------------------------------|
 G---5---6---5----------------------------5------------------|
 D------------------7---5---7---5----7----------7------------|
 A-----------------------------------------------------------|
 E-----------------------------------------------------------|
 
 e---------------------------------------------------------|
 B------------------------------------8--------------------|
 G---5---6---5------------------7s9-------7b9r7----5-------|
 D------------------7---5---7------------------------------|
 A---------------------------------------------------------|
 E---------------------------------------------------------|
 
 e-----------------------------------|
 B-----------------------------------|
 G---6---7---7---6---7---6---7---6---|
 D-----------------------------------|
 A-----------------------------------|
 E-----------------------------------|
 
 e-----------------------------------------------------------|
 B-----------------------------------------------------------|
 G---5---6---5----------------------------5------------------|
 D------------------7---5---7---5----7----------7------------|
 A-----------------------------------------------------------|
 E-----------------------------------------------------------|
 
Chorus:
 
G                 D                              A   D
 Toniiiiiiiiiiiiiiiiight I'm a rock n' roll star
 
G                 D                              A   D
 Toniiiiiiiiiiiiiiiiight I'm a rock n' roll star
 
G                 D                              A   D
 Toniiiiiiiiiiiiiiiiight I'm a rock n' roll star 
FUENTE: Webs de Acordes

Aprende con Video Lecciones de Oasis:
  · Videotutoriales de Oasis
Otras Canciones para Guitarra que te pueden interesar:
Tablaturas de Ricardo Arjona Canciones de Maná Acordes de Oasis

Todas las canciones son interpretaciones propias y personales de sus transcriptores. El material contenido en esta página es para exclusivo uso privado, por lo que queda prohibida la reproducción total o parcial así como su uso para fines comerciales.

Contactar : Aviso Legal : Videolecciones : Tablaturas : Webmasters : Mapa Web
© GuitarAcordeS.com