cerrar
menos
más
Recursos Canciones
« En PDF para Imprimir     Acordes y Tablaturas para Guitarra, Canciones y Tabs de tus artistas Share

Oasis

Shakermaker

TRANSCRIPCIÓN: -matt182-
+INFO: Desconocido
ALBUM: DEFINITELY MAYBE
PAÍS: Reino Unido
GENERO: Pop Rock

 
Acorde B
B
Acorde A
A
Acorde E
E
Acorde F#
F#
Acorde D
D
Intro:
                                              slide
---------------------------------------0---------------------------------------|
-------0------------0------------0-------0---------------0-----------0---------|
-----2---2--------2---2--------2---2-------2-----------7---7-------7---7-------|
---1-------1----1-------1----1-------1-------1-------6-------6---6-------6-----|
-2------------2------------2-----------------------7-----------7---------------|
-------------------------------------------------------------------------------|

---------------------------|
-------0-----------0-------|
-----2---2-------2---2-----|
---1-------1---1-------1---|
-2-----------2-------------|
---------------------------|

B
I'd like to be somebody else and not know where I've been
E                                                B
I'd like to build myself a house out of plasticine
A         E                                       B
Aaaah, aaaaah, Shake along with me
A         E                                      B     F#
Aaaah, aaaaah, Shake along with me
B
I've been driving in my car with my friend Mr. Soft
E                                     B
Mr. Clean and Mr.Ben are living in my loft
A         E                                       B
Aaaah, aaaaah, Shake along with me
A         E                                      B     F#
Aaaah, aaaaah, Shake along with me

(solo: mismos acordes de los versos)

D                      A             B
I'm sorry but I just don't know
D                      A           B
I know I said I told you so
D                                                  A          B
But when you're happy and you're feeling fine
                                               A                E
Then you'll know that it's the right time
                                            A                 E
Yeah, you know that it's the right time
                                        (intro riff)
To shake along with me!
B
Mister Sifter sold me songs when I was just sixteen
E                                                    B
Now he stops at traffic lights but only when they're green
A         E                                       B
Aaaah, aaaaah, Shake along with me
A         E                                      B     F#
Aaaah, aaaaah, Shake along with me
A         E
Aaaah, aaaaah

(intro)
FUENTE: Webs de Acordes

Aprende con Video Lecciones de Oasis:
  · Videotutoriales de Oasis
Otras Canciones para Guitarra que te pueden interesar:
Tablaturas de Ricardo Arjona Canciones de Maná Acordes de Oasis

Todas las canciones son interpretaciones propias y personales de sus transcriptores. El material contenido en esta página es para exclusivo uso privado, por lo que queda prohibida la reproducción total o parcial así como su uso para fines comerciales.

Contactar : Aviso Legal : Videolecciones : Tablaturas : Webmasters : Mapa Web
© GuitarAcordeS.com