cerrar
menos
más
Recursos Canciones
« En PDF para Imprimir     Acordes y Tablaturas para Guitarra, Canciones y Tabs de tus artistas Share

Radiohead

Thinking About You

TRANSCRIPCIÓN: lordfoo
+INFO: Desconocido
ALBUM: PABLO HONEY
PAÍS: Inglaterra
GENERO: Rock Alternativo

 
Acorde G
G
Acorde G/C*3
G/C
*=traste3

Acorde D/F#
D/F#
Acorde Em
Em
Acorde Em7
Em7
Acorde C
C
Acorde C/B
C/B
Acorde Gmaj7
Gmaj7
Acorde B
B
Acorde Csus2
Csus2
Acorde G/B
G/B
Intro:

G G/C     G G/C
G G/C     G D/F#
Em Em7    D/F# G
G G/C

Verse:

G             G/C  G                G/C   G  
Been thinkin 'bout you, your records up here
G             G/C  G                G/C   D/F# 
Your eyes on my wall, your teeth are over there
              Em       Em7          D/F#  G   
But I'm still no-one, and you're a star
        G/C    G                       
What do you care


G             G/C  G                G/C   G  
Been thinkin 'bout you, and there's no rest
G             G/C  G                G/C   D/F# 
Should I still love you, still see you in bed
                     Em      Em7        D/F#  G   
But I'm playin' with myself, what do you care
                        G/C    G
When the other men are far far better


Chorus:

C         C/B        C            C/B       C
All the things you got, all the things you need 
C             C/B     C          C/B      Gmaj7/B
I bought you cigarettes, I'll bribe the company
Csus2                      G/B Csus2 G/B Csus2
To come and see you, honey


Verse:

G             G/C  G                G/C   G  
Been thinkin 'bout you, so how can you sleep
G               G/C      G                 G/C              D/F# 
These people aren't your friends, they're paid to kiss your feet
                           Em   Em7  D/F#      G   
But they don't know what I know, why should you care
     G/C      G
When I'm not there


Bridge:

   C  C/B   C  C/B         C  C/B   C  C/B         C  C/B   C  C/B         Gmaj7/B
e -------8---------      -------8--------------|---------8-----------|--------7--------------|
B ---9------8----8-      ----------8----8-8----|------------8---8----|------------8--------0-|
G ------------9----      ---9--------9-----9---|--(9)-9-------9----9-|--7---------------7----|
D -----------------      ----------------------|---------------------|-----------------------|
A -----------------      ----------------------|---------------------|-----------------------|
E ----------------- (X2) ----------------------|---------------------|-----------------------|


   Csus2 G/B                Csus2 G/B                   Csus2 G/B
e -------------0-------|------------0----------|      ---0---3-------------|
B -----5---------------|------5-------------5--|      -----------0---------|
G --7------------------|--7-------------7------|      ---------------------|
D ---------------------|-----------------------|      ---------------------|
A ---------------------|-----------------------|      ---------------------|
E ---------------------|-----------------------| (X3) ---------------------|


Verse:

G             G/C  G                G/C   G  
Been thinkin 'bout you, and there's no rest
G             G/C  G                G/C   D/F# 
Should I still love you, still see you in bed
              Em       Em7          D/F#  G
But I'm playin' with myself, what do you care
         G/C  G
When I'm not there


C         C/B        C            C/B    C
All the things you got, you'll never need 
C             C/B     C          C/B      Gmaj7/B
All the things you got, I'm planning to bleed to,
G
Please you

G
FUENTE: Webs de Acordes

Aprende con Video Lecciones de Radiohead:
  · Videotutoriales de Radiohead
Otras Canciones para Guitarra que te pueden interesar:
Tablaturas de Coldplay Canciones de The Cranberries Acordes de Radiohead

Todas las canciones son interpretaciones propias y personales de sus transcriptores. El material contenido en esta página es para exclusivo uso privado, por lo que queda prohibida la reproducción total o parcial así como su uso para fines comerciales.

Contactar : Aviso Legal : Videolecciones : Tablaturas : Webmasters : Mapa Web
© GuitarAcordeS.com