cerrar
menos
más
Recursos Canciones
« En PDF para Imprimir     Acordes y Tablaturas para Guitarra, Canciones y Tabs de tus artistas Share

Red Hot Chili Peppers

The Zephyr Song

TRANSCRIPCIÓN: Marcelo Mendes
+INFO: marcelodaniel-mendes@ig.com.br
ALBUM: BY THE WAY
PAÍS: USA
GENERO: Rock

 
Acorde Am
Am
Acorde G
G
Acorde Em
Em
Acorde F
F
Acorde D
D
Acorde A
A
Intro: (Am G Em F) 
 
Am                             
 Can I get your hand and write on 
G  
 Just a piece of leg and bite on 
Em 
 What a night to fly my kite on 
F 
 Do yoy want to flash light on 
Am                               G
 Take a look it's on display...   for you 
Em                     F   
 Coming down, no not today 

Am 
 Did you meet your fortune teller 
G 
 Get it off with no propeller 
Em 
 Do it up it's on with Stella 
F 
 What a way to finallu smell her 
Am                                  G 
 Pickin'up but not too strong...   for you 
Em                      F 
 Take a piece and pass it on 

Chorus:
       D 
 Fly away on my Zephyr 
G           A 
 I feel it more than ever 
D 
 And in this perfect weather 
G              A 
 We'll find a place together      


Am      G      Em     F 
Fly     on...  my    mind 
 
Am 
 Rebel and liberator 
G 
 Find a way to be a skater 
Em 
 Rev it up to levitate her 
F 
 Super friendly aviator 
Am 
 Take a look it's on display 
G        Em                        F 
 For you...  comin' down no not today 
 
Refrao 
 
D       
 In the water where I center my emotion 
G                  A            G  A 
 All the world can pass me by 
D 
 Fly away on my Zephyr 
G             A 
 We'll find a place together 
 
Solo: 
 
|-12--11--12--12----12---11---12--11---5----
|-------------------------------------------
|-------------------------------------------
|-------------------------------------------
|-------------------------------------------
|-------------------------------------------
 

|--10---7---10--10---10----8---10---8--8------------
|---------------------------------------------------
|---------------------------------------------------
|--------------------------------------------------- 
|--------------------------------------------------- 
|--------------------------------------------------- 

(Am G Em F)
 
D 
 Fly away on my Zephyr 
G           A 
 I feel it more than ever 
D 
 And in this perfect weather 
G              A 
 We'll find a place together 
D       
 In the water where I center my emotion 
G                  A            G  A 
 All the world can pass me by 
D 
 Fly away on my Zephyr 
G               A 
 We're going to live forever 
		     
Final:   (x4 veces)
 
|----2-----2------2------2------2-------3-----
|------3-----3------3------3------3-------3---
|--2-----2-----2------2------2--------4------4
|---------------------------------------------
|---------------------------------------------
|---------------------------------------------


|-3---------5-----5-------------------------------- 
|---3---------5-----5------------------------------ 
|-----4---6-----6-----6---------------------------- 
|-------------------------------------------------- 
|-------------------------------------------------- 
|--------------------------------------------------
FUENTE: Webs de Acordes

Aprende con Video Lecciones de Red Hot Chili Peppers:
  · Videotutoriales de Red Hot Chili Peppers
Otras Canciones para Guitarra que te pueden interesar:
Tablaturas de U2 Canciones de Queen Acordes de Fito & Fitipaldis

Todas las canciones son interpretaciones propias y personales de sus transcriptores. El material contenido en esta página es para exclusivo uso privado, por lo que queda prohibida la reproducción total o parcial así como su uso para fines comerciales.

Contactar : Aviso Legal : Videolecciones : Tablaturas : Webmasters : Mapa Web
© GuitarAcordeS.com