cerrar
menos
más
Recursos Canciones
« En PDF para Imprimir     Acordes y Tablaturas para Guitarra, Canciones y Tabs de tus artistas Share

Ricardo Arjona

Libre

TRANSCRIPCIÓN: Genesis pimentel
+INFO: genepimentel70@hotmail.com
ALBUM: DEL OTRO LADO DEL SOL
PAÍS: Guatemala
GENERO: Pop Rock

 
Acorde Dsus4
Dsus4
Acorde F#m
F#m
Acorde G
G
Acorde Asus4
Asus4
Acorde D
D
Acorde C
C
Acorde Em
Em
Acorde Bm
Bm
Acorde D/F#
D/F#
INTRO: 

E|---------------------------------------------------| 
B|---------------------------------------------------| 
G|-------------2-2-2-2-3/5-3--2-2h32-----------------| 
D|-1-1/3-3-3/5-----------------------5---------------| 
A|---------------------------------------------------| 
E|---------------------------------------------------| 

E|1-1-1/3-1----5-5-5-5-6-6/8-6-5-5h65-3--------------| 
B|---------------------------------------------------| 
G|---------------------------------------------------| 

E|---------0-----0---------------0-----0--------------| 
B|-------3---3-----3-----------3---3-----3------------| 
G|-----2-------2-------------2-------2----------------| 
D|---0---------------------0--------------------------| 
A|----------------------------------------------------| 
E|----------------------------------------------------| 
El ruido de un tren me despierta  

E|----------------0-----0-----------------0-----------| 
B|--------------0---0-----0------0--------0-----------| 
G|------------2-------2--------2----------2-----------| 
D|------------------------------------2---2-----------| 
A|-----------------------------------0----------------| 
E|----------2----------------3------------------------| 
Fueron dos horas y media las que dormí 

E|---------0-----0---------------0-----0--------------| 
B|-------3---3-----3-----------3---3-----3------------| 
G|-----2-------2-------------2-------2----------------| 
D|---0---------------------0--------------------------| 
A|----------------------------------------------------| 
E|----------------------------------------------------| 
   Y me desayuno un ci----garro  

E|----------------0-----0---------------------------0-| 
B|--------------0---0-----0-------------0-----------0-| 
G|------------2-------2---------------2-------------2-| 
D|---------------------------------------------(2)--2-| 
A|--------------------------------------------0-------| 
E|----------2-----------------------3-----------------| 
     Y el espejo me dice estas mas flaco que nunca 

E|-----------------------------------------------0-0--| 
B|---------1-----1-------------0-----0-----------0-0--| 
G|-------0---0-----0---------0---0-----0---------2-2--| 
D|-----2-------2-----------0-------0----------2--2-2--| 
A|---3---------------------------------------0--------| 
E|------------------------3---------------------------| 
Mi cuarto es un caos de objetos nada en su lugar 

        Dsus4 
Hace un mes que cortaron el teléfono  
	F#m			 G           Asus4 
Y esta tele blanco y negro no quiere funcionar 
     Dsus4 
Y tu foto rusieña a un costado  
       F#m            G        G 
aunque parezca me provoca una lágrima 
     C                      G			     Asus4 
y mi perro que era mi único amigo se buscó a otro amo  
  G   D/F#  Em        C		     D 
y si--go    aquí tan solo como un rubio en Harlem  

      G             Bm               C            D                  G 
y soy libre y no me sirve para que quiere la libertad de la luna un tigre  
	Bm            C                D              G 
no me sirve he compartido mi cama 100 veces y quiero irme  
	Bm           C                 D		      G 
que me pasa a dónde vivo desde que no estas ya no le llamo casa 

Em  C Asus4 

        Dsus4  
Cae le noche y todo es silencio 
	   F#m           G    Asus4 
Queda sin nadie la calle 33 
       D 
Y esta noche hay que encender una vela 
	 F#m		      G   Asus4 
Por no pagar me cortaron la luz 
	C		      G                         Asus4 
Y para colmo una señora me avisa, mi alquiler está en mora 
   G  D/F# Em        C                        D 
Y si--go   aquí, tan solo como un hippie en Siberia 

      G             Bm               C            D                  G 
y soy libre y no me sirve para que quiere la libertad de la luna un tigre  
	Bm            C                D              G 
no me sirve he compartido mi cama 100 veces y quiero irme  
	Bm           C                 D		      G 
que me pasa a dónde vivo desde que no estas ya no le llamo casa
FUENTE: Webs de Acordes

Aprende con Video Lecciones de Ricardo Arjona:
  · Videotutoriales de Ricardo Arjona
Otras Canciones para Guitarra que te pueden interesar:
Tablaturas de Ricardo Arjona Canciones de Maná Acordes de Oasis

Todas las canciones son interpretaciones propias y personales de sus transcriptores. El material contenido en esta página es para exclusivo uso privado, por lo que queda prohibida la reproducción total o parcial así como su uso para fines comerciales.

Contactar : Aviso Legal : Videolecciones : Tablaturas : Webmasters : Mapa Web
© GuitarAcordeS.com