cerrar
menos
más
Recursos Canciones
« En PDF para Imprimir     Acordes y Tablaturas para Guitarra, Canciones y Tabs de tus artistas Share

Rosendo

Como El Pico De Un Colchón

TRANSCRIPCIÓN: Page Piru
+INFO: Desconocido
ALBUM: A TIENTAS Y BARRANCAS
PAÍS: España
GENERO: Rock

 
Acorde F
F
Acorde C
C
Acorde A#
A#
Acorde G
G
Acorde C#*4
C#
*=traste4

Intro: F 

Estrofa:

F                       A#    C
Komo el pico de un colchon el gesto impas

F                        A#    C
La pregunta del millon

F                        A#    C
Dar cada vez al personal un alegron

F                        A#    C
digno de televisar

Estribillo:

A#                          F  G     C#  C
Nunca sabes lo que pasa alrededor
A#                          F  G     C#  C
No te extrañe ke se den el revolkon

Estribillo 2:

G            G          G              G         C# C C# C C# C 
¿No te tienen dicho ke te kedes aki fuera?

G            G          G              G         C# C C# C C# C 
Si,         Si          Si             Si

C                     C                   
Y te komen el ocipital abusando de tu libertad

Solo:

E|------------------------------------------
B|------------------------------------------
G|-9s10--9s10--9s10--9s10-------------------
D|------------------------------------------
A|-------------------------7s8-7s8--12-8-10-
E|------------------------------------------

--------------------------------------------------------|
--------------------------------------------------------|
-9s10--9s10--9s10--9s10---------------------------------|
--------------------------------------------------------|
--------------------------7s8-8-8-7-8-10-8-7-8-10s12--10|
--------------------------------------------------------|

E|----------------------------------------------
B|----------------------------------------------
G|-10p9p10p9---------12-10-9-10-9---------------
D|-----------12--10---------------12-10-8-7-----
A|------------------------------------------8---
E|--------------------------------------------8-

-------------------------------------------|
-------------------------------------------|
---------------------s7-7---s9---9---------|
-------7-8-8-7-----------------------------|
---7-8--------8-7--------------------------|
-8----------------8------------------------|
FUENTE: Webs de Acordes

Aprende con Video Lecciones de Rosendo:
  · Videotutoriales de Rosendo
Otras Canciones para Guitarra que te pueden interesar:
Tablaturas de U2 Canciones de Queen Acordes de Fito & Fitipaldis

Todas las canciones son interpretaciones propias y personales de sus transcriptores. El material contenido en esta página es para exclusivo uso privado, por lo que queda prohibida la reproducción total o parcial así como su uso para fines comerciales.

Contactar : Aviso Legal : Videolecciones : Tablaturas : Webmasters : Mapa Web
© GuitarAcordeS.com