cerrar
menos
más
Recursos Canciones
« En PDF para Imprimir     Acordes y Tablaturas para Guitarra, Canciones y Tabs de tus artistas Share

Silvio Rodríguez

Imagínate

TRANSCRIPCIÓN: Ulises
+INFO: Desconocido
ALBUM: RABO DE NUBE
PAÍS: Cuba
GENERO: Cantautor

 
Acorde F
F
Acorde E7
E7
Acorde Am
Am
Acorde C
C
Acorde D
D
Acorde E
E
Acorde D/F#
D/F#
Acorde G
G
Acorde G/B
G/B
Acorde Dm
Dm
Acorde G/E
G/E
Acorde Em
Em
Intro: F E7 Am C D E F E D F D/F# G

Riff:

e-------------------0------------------------0-----
B-1---1-3---3-5---5---5----6---6---5---3---3---3---
G---0-----0-----0-------0----0---0---0---0-------0-
D--------------------------------------------------
A-3-----5-----7------------8-------7---5-----------
E--------------------------------------------------

e--------------------0-----------------------------
B--8---8-6----5---5---5---6-5-3-1-0----------------
G----0-----0----0-------0--------------------------
D--------------------------------------------------
A-10-----8----7-----------8-7-5-3-2----------------
E--------------------------------------------------

G   Am     G/B      C
  a)I m a g i n a t e
     Dm       C   G/B
que desde muy ni  ño,
    G/E    Dm  C
te llevaba flo res,
    Dm          G
te daba mi abrigo

a)Imaginate,
que soy el amigo
de tu mismo grado,
que lleva tus libros.

 Am G/B C Dm C G/B G/E Dm C Dm G

   F       E7      Am
 b)I m a g i n a t e
  C     D/F#   E       F
que soy de tu calle,
          Em   Dm      F
que siempre pasé,
       D/F#     G
por donde    miraste

 b)Imaginate
que hasta mi perro,
mebusca en tu puerta
cuando me le pierdo. (Riff)

 a)Imagínate
que eres mi dama
mi último sueño
mi más roja flama

 a)Imaginate
que somos nosotros,
tú y yo pra siempre,
que no eres de otro.

Final: Am G/B C Dm C G/B G/E Dm C Dm G
FUENTE: Webs de Acordes

Aprende con Video Lecciones de Silvio Rodríguez:
  · Videotutoriales de Silvio Rodríguez
Otras Canciones para Guitarra que te pueden interesar:
Tablaturas de Joaquín Sabina Canciones de Silvio Rodríguez Acordes de Joan Manuel Serrat

Todas las canciones son interpretaciones propias y personales de sus transcriptores. El material contenido en esta página es para exclusivo uso privado, por lo que queda prohibida la reproducción total o parcial así como su uso para fines comerciales.

Contactar : Aviso Legal : Videolecciones : Tablaturas : Webmasters : Mapa Web
© GuitarAcordeS.com