cerrar
menos
más
Recursos Canciones
« En PDF para Imprimir     Acordes y Tablaturas para Guitarra, Canciones y Tabs de tus artistas Share

The Offspring

Dammit, I Changed Again

TRANSCRIPCIÓN: Mateus Gebrin
+INFO: foofighter_aapp@zipmail.com.br
ALBUM: CONSPIRACY OF ONE
PAÍS: USA
GENERO: Pop Punk

 
Acorde D#*6
D#
*=traste6

Acorde C#*4
C#
*=traste4

Acorde G#*4
G#
*=traste4

Acorde F
F
INTRO:      
Fii:
e|----------------------------------------------| 
B|----------------------------------------------| 
G|----------------------------------------------| 
D|--------6-5-6-------6-5-6-------6-5-6-8-6-5---| 
A|----8-----------4-----------6---------------6-| 
E|----------------------------------------------| 
    
Hey, come inside 
While I stand here acting bold 
Can't stand to feel this way 
Clear out the cobwebs in my soul  
 
D#     (Fii)
REFRAO: 
          (Fii)            
This time I turn around 
C#  
And things have changed 
G#          D#  
Now I don't feel the same  
Fii 
Start a fight 
C# 
I can't defend 
G# 
One more time 
D# 
Dammit, I changed again  
 
(INTRO) 

Now I don't see 
Things the way I did before 
Can't stand to feel this way 
Things important yesterday 
Don't matter anymore 
 
F                        C#  
It doesn't make any sense 
            G#                D# 
To feel so different day to day 
(Can't stand to feel this way) 
F              C#                 G#        
When nothing's changed except for me  
 
(REFRAO)  
(INTRO) 
 
Solo:
e|------------------------------------------------------------| 
B|------------------------------------------------------------| 
G|------------------------------------------------------------| 
D|--10---10---10---11---11---11---10---10---10---8---8---8----| 
A|-----8----8----8----8----8----8----8----8----8---6---6---6--| 
E|------------------------------------------------------------| 
 
(REFRAO) 
(INTRO) 
(INTRO)   (Fii)
FUENTE: webs de acordes

Aprende con Video Lecciones de The Offspring:
  · Videotutoriales de The Offspring
Otras Canciones para Guitarra que te pueden interesar:
Tablaturas de Green Day Canciones de Ramones Acordes de Blink 182

Todas las canciones son interpretaciones propias y personales de sus transcriptores. El material contenido en esta página es para exclusivo uso privado, por lo que queda prohibida la reproducción total o parcial así como su uso para fines comerciales.

Contactar : Aviso Legal : Videolecciones : Tablaturas : Webmasters : Mapa Web
© GuitarAcordeS.com