cerrar
menos
más
Recursos Canciones
« En PDF para Imprimir     Acordes y Tablaturas para Guitarra, Canciones y Tabs de tus artistas Share

The Yardbirds

Putty In Your Hands

TRANSCRIPCIÓN: sezar
+INFO: Keanu-rimedorf@hotmail.com
ALBUM: AVEC ERIC CLAPTON
PAÍS: Inglaterra
GENERO: Blues

 
Acorde A
A
Acorde D
D
Acorde C
C
Acorde B
B
Acorde E
E
Intro:

e|---------------------------------------------------------|
B|---------------------------------------------------------|
G|---------------------------------------------------------|
D|---------------------------------------------------------|
A|-----3---5-3-------3---------2-----3---5-3---------------|
E|-5-5---5-----5-5-5---5-0-0-3---5-5---5-----5-0-0-0-0-0-0-|

e|--------------------------------------------------------------------------------------------------|
B|--------------------------------------------------------------------------------------------------|
G|--------------------------------------------------------------------------------------------------|
D|-------------------------------------------------------------3---5-3-------3---5-3----------------|
A|-----3---5-3-------3---5-3-------3---5-3-------3---5-3---5-5---5-----5-5-5---5-----5-----3---5-3--|
E|-5-5---5-----5-5-5---5-----5-5-5---5-----5-5-5---5-----5-----------------------------5-5---5-----5|

A
You say hop and I'll hop,
 You say stop and I'll stop,
 
D
You say come and I come,
   
                 A
 Oh anything you say I'm like a hunk of clay.
   
               B
 I'm just like putty,
 
C                        A   
Putty in your hands ah-ah,
 Well ah-ah.

 A
 With one wave of your hand,
 I'm your slave to command,
 
D
But I'm glad it's OK,
 
                A
Oh anything you say I'm like a hunk of clay.


         D
 You can stretch me until I'm ten feet tall,
 
          A 
Or cut me down to the size of a rubber ball.

         B
 You can use me, abuse me, but never remove me,

    E
 Without your love I ain't nothing at all.
 Oh well ah.


 A
 They say I'm a fool,
 'Cos you treat me so cruel,
 
D
But I'll go on this way.

                 A
 Oh anything you say I'm like a hunk of clay.
FUENTE: webs de acordes

Aprende con Video Lecciones de The Yardbirds:
  · Videotutoriales de The Yardbirds
Otras Canciones para Guitarra que te pueden interesar:
Tablaturas de B.B. King Canciones de Steve Miller Band Acordes de Joe Cocker

Todas las canciones son interpretaciones propias y personales de sus transcriptores. El material contenido en esta página es para exclusivo uso privado, por lo que queda prohibida la reproducción total o parcial así como su uso para fines comerciales.

Contactar : Aviso Legal : Videolecciones : Tablaturas : Webmasters : Mapa Web
© GuitarAcordeS.com