cerrar
menos
más
Recursos Canciones
« En PDF para Imprimir     Acordes y Tablaturas para Guitarra, Canciones y Tabs de tus artistas Share

U2

Electrical Storm

TRANSCRIPCIÓN: Quynh Lam
+INFO: rickmanic@fsmail.net
ALBUM: THE BEST OF 1990-2000
PAÍS: Irlanda
GENERO: Rock

 
Acorde A
A
Acorde E
E
Acorde C#m*4
C#m
*=traste4

Acorde F#m
F#m
Acorde F#
F#
Acorde B
B
INTRO:

----------------------|----------------------|---------|
--/12-10---7---7---7--|-/12-10---7---7---7---|--/12-10-|
---------9---9---9----|---------9---9---9----|---------|
----------------------|----------------------|---------|
----------------------|----------------------|---------|
----------------------|----------------------|---------|

CHORUS 1:
A 		E 			  C#m
Your in my mind, all of the time.
		    A	
I know that's not enough.
A				 E
Well if the sky can't crack 
				 C#m
There must be someway back. 
		   A
For love and only love.

F#m E  F#m     E   
       Electrical storm

F#m E  F#m     E   
       Electrical storm

F#m E  F#m     E   
       Electrical storm

CHORD RIFF-(in rhythm slashes)
F#       A       B         A
(Play the this in verse 1 and Lets see colours... )

Sequence after the first chorus:
-----9------9---------7------7------       (Repeat through 
---7------7---------7------7------7- <----- out 2nd verse
-9------9----9--8/9-----9------9----         and Let see 			
                        		colours... etc.)

CHORUS 2:
A 		E 	     C#m
Your in my mind, all of the time.
	       B    A	
I know that's not enough.
A			E
Well if the sky can't crack 
			 C#m
There must be someway back. 
		   A
For love and only love.

F#m E  F#m     E   
       Electrical storm

F#m E  F#m     E   
       Electrical storm

F#m E  F#m     E   
       Electrical storm
(2nd time chorus)
Baby don't cry

----------------------|-------------------
--/12-10---7---7---7--|--/12-10--9-10-9-7-
---------9---9---9----|-------------------
----------------------|-------------------
----------------------|-------------------
----------------------|-------------------

Verse 1:
F#  A		    B       A          F#
   The sea it swells like a sore head
A				B    A
And the night, it is aching
F#  A		    B     	  A	      F#
   Two lovers lie with no sheets on their bed
 A 			    B    A
And the day, it is breaking

F# A	    B        A       	  F#
  On rainy days we'd go swimming out
A	  B      A                 F#
On rainy days, swimming in the sound
A         B                    
On rainy days we'd go swimming out

(Chorus 1)

Verse 2:
Car alarm
Won't wrench him back to sleep(???)
You kept awake
Dreaming someone else's dream
Coffee is cold
But it'll get you through
Compromise
That's nothing new to you
Let's see colors that have never been seen
Let's go to places no one else has been

(Chorus 2)

Verse 3:
It's hot as hell, honey, in this room
Sure hope the weather will break soon
The air is heavy, heavy as a truck
Hope the rain will wash away our bad luck
The sky can crack
There must be some way back
For love and only love
Electrical storm
Electrical storm
Electrical storm
Baby don't cry
Baby don't cry
Oh baby don't cry
Oh baby don't cry
FUENTE: Webs de Acordes

Aprende con Video Lecciones de U2:
  · Videotutoriales de U2
Otras Canciones para Guitarra que te pueden interesar:
Tablaturas de U2 Canciones de Fito & Fitipaldis Acordes de Red Hot Chili Peppers

Todas las canciones son interpretaciones propias y personales de sus transcriptores. El material contenido en esta página es para exclusivo uso privado, por lo que queda prohibida la reproducción total o parcial así como su uso para fines comerciales.

Contactar : Aviso Legal : Videolecciones : Tablaturas : Webmasters : Mapa Web
© GuitarAcordeS.com